ISO-10303-21;
HEADER;
FILE_DESCRIPTION (( 'STEP AP214' ),
    '1' );
FILE_NAME ('SF_BLKH_250.STEP',
    '2022-06-21T07:34:12',
    ( '' ),
    ( '' ),
    'SwSTEP 2.0',
    'SolidWorks 2020',
    '' );
FILE_SCHEMA (( 'AUTOMOTIVE_DESIGN' ));
ENDSEC;

DATA;
#1 = SURFACE_STYLE_FILL_AREA ( #60 ) ;
#2 = EDGE_LOOP ( 'NONE', ( #197 ) ) ;
#3 =( GEOMETRIC_REPRESENTATION_CONTEXT ( 3 ) GLOBAL_UNCERTAINTY_ASSIGNED_CONTEXT ( ( #257 ) ) GLOBAL_UNIT_ASSIGNED_CONTEXT ( ( #48, #206, #9 ) ) REPRESENTATION_CONTEXT ( 'NONE', 'WORKASPACE' ) );
#4 = STYLED_ITEM ( 'NONE', ( #27 ), #204 ) ;
#5 =( NAMED_UNIT ( * ) PLANE_ANGLE_UNIT ( ) SI_UNIT ( $, .RADIAN. ) );
#6 = PLANE ( 'NONE',  #140 ) ;
#7 = EDGE_CURVE ( 'NONE', #17, #17, #43, .T. ) ;
#8 = EDGE_CURVE ( 'NONE', #177, #177, #232, .T. ) ;
#9 =( NAMED_UNIT ( * ) SI_UNIT ( $, .STERADIAN. ) SOLID_ANGLE_UNIT ( ) );
#10 =( NAMED_UNIT ( * ) SI_UNIT ( $, .STERADIAN. ) SOLID_ANGLE_UNIT ( ) );
#11 = FACE_OUTER_BOUND ( 'NONE', #106, .T. ) ;
#12 = DIRECTION ( 'NONE',  ( -0.5877852522924768008, 0.8090169943749446757, 4.749294903341055703E-15 ) ) ;
#13 = CIRCLE ( 'NONE', #169, 105.1946386251692473 ) ;
#14 = ORIENTED_EDGE ( 'NONE', *, *, #160, .T. ) ;
#15 = DIRECTION ( 'NONE',  ( 1.615544574432588308E-15, 1.000000000000000000, -1.660017631889510143E-29 ) ) ;
#16 = ADVANCED_FACE ( 'NONE', ( #166, #221 ), #41, .T. ) ;
#17 = VERTEX_POINT ( 'NONE', #141 ) ;
#18 = UNCERTAINTY_MEASURE_WITH_UNIT (LENGTH_MEASURE( 1.000000000000000082E-05 ), #98, 'distance_accuracy_value', 'NONE');
#19 = CARTESIAN_POINT ( 'NONE',  ( 105.1946386251501480, -9.960601041788740898E-11, 63.41004786968794349 ) ) ;
#20 = ORIENTED_EDGE ( 'NONE', *, *, #201, .T. ) ;
#21 = APPLICATION_PROTOCOL_DEFINITION ( 'draft international standard', 'automotive_design', 1998, #52 ) ;
#22 = EDGE_LOOP ( 'NONE', ( #20 ) ) ;
#23 = EDGE_CURVE ( 'NONE', #154, #154, #184, .T. ) ;
#24 = PRODUCT_DEFINITION_SHAPE ( 'NONE', 'NONE',  #102 ) ;
#25 = CONICAL_SURFACE ( 'NONE', #109, 123.0194638625170711, 1.431169986635368874 ) ;
#26 =( GEOMETRIC_REPRESENTATION_CONTEXT ( 3 ) GLOBAL_UNCERTAINTY_ASSIGNED_CONTEXT ( ( #54 ) ) GLOBAL_UNIT_ASSIGNED_CONTEXT ( ( #244, #5, #248 ) ) REPRESENTATION_CONTEXT ( 'NONE', 'WORKASPACE' ) );
#27 = PRESENTATION_STYLE_ASSIGNMENT (( #222 ) ) ;
#28 = EDGE_LOOP ( 'NONE', ( #96 ) ) ;
#29 = DIRECTION ( 'NONE',  ( 1.027528214424256061E-14, -0.000000000000000000, 1.000000000000000000 ) ) ;
#30 = FACE_OUTER_BOUND ( 'NONE', #80, .T. ) ;
#31 = FILL_AREA_STYLE ('',( #228 ) ) ;
#32 = DIRECTION ( 'NONE',  ( -0.5877852522924768008, 0.8090169943749445647, 4.230363443744518942E-15 ) ) ;
#33 = PLANE ( 'NONE',  #233 ) ;
#34 = UNCERTAINTY_MEASURE_WITH_UNIT (LENGTH_MEASURE( 1.000000000000000082E-05 ), #250, 'distance_accuracy_value', 'NONE');
#35 = FACE_OUTER_BOUND ( 'NONE', #139, .T. ) ;
#36 = CARTESIAN_POINT ( 'NONE',  ( 6.915368127771210527E-12, -7.013256642096620878E-12, 63.41004786968579054 ) ) ;
#37 = DIRECTION ( 'NONE',  ( -1.658212899529295031E-29, 1.000000000000000000, -1.613788192140710016E-15 ) ) ;
#38 = CARTESIAN_POINT ( 'NONE',  ( 3.014514502684824966E-11, 0.000000000000000000, 2343.806794348354742 ) ) ;
#39 = DIRECTION ( 'NONE',  ( 0.000000000000000000, 0.000000000000000000, 1.000000000000000000 ) ) ;
#40 = MECHANICAL_DESIGN_GEOMETRIC_PRESENTATION_REPRESENTATION (  '', ( #155 ), #78 ) ;
#41 = CYLINDRICAL_SURFACE ( 'NONE', #207, 124.9999999999906066 ) ;
#42 =( NAMED_UNIT ( * ) SI_UNIT ( $, .STERADIAN. ) SOLID_ANGLE_UNIT ( ) );
#43 = CIRCLE ( 'NONE', #253, 124.9999999999906066 ) ;
#44 = CARTESIAN_POINT ( 'NONE',  ( 6.915368127771221028E-12, -1.000134774647258067E-11, 63.41004786968598950 ) ) ;
#45 = DIRECTION ( 'NONE',  ( -1.027528214424256061E-14, -1.613788192140710016E-15, -1.000000000000000000 ) ) ;
#46 = FACE_OUTER_BOUND ( 'NONE', #99, .T. ) ;
#47 = MECHANICAL_DESIGN_GEOMETRIC_PRESENTATION_REPRESENTATION (  '', ( #4 ), #26 ) ;
#48 =( LENGTH_UNIT ( ) NAMED_UNIT ( * ) SI_UNIT ( .MILLI., .METRE. ) );
#49 = EDGE_CURVE ( 'NONE', #220, #220, #82, .T. ) ;
#50 = DIRECTION ( 'NONE',  ( -1.658212899529295031E-29, 1.000000000000000000, -1.613788192140710016E-15 ) ) ;
#51 = DIRECTION ( 'NONE',  ( 0.000000000000000000, 1.000000000000000000, 0.000000000000000000 ) ) ;
#52 = APPLICATION_CONTEXT ( 'automotive_design' ) ;
#53 = AXIS2_PLACEMENT_3D ( 'NONE', #251, #29, #86 ) ;
#54 = UNCERTAINTY_MEASURE_WITH_UNIT (LENGTH_MEASURE( 1.000000000000000082E-05 ), #244, 'distance_accuracy_value', 'NONE');
#55 = EDGE_LOOP ( 'NONE', ( #158 ) ) ;
#56 = EDGE_LOOP ( 'NONE', ( #93 ) ) ;
#57 = AXIS2_PLACEMENT_3D ( 'NONE', #44, #173, #50 ) ;
#58 = DIRECTION ( 'NONE',  ( -1.027528214424256061E-14, -1.613788192140710016E-15, -1.000000000000000000 ) ) ;
#59 = CARTESIAN_POINT ( 'NONE',  ( 6.647330622910910598E-12, 0.000000000000000000, 37.32438899456794701 ) ) ;
#60 = FILL_AREA_STYLE ('',( #183 ) ) ;
#61 = ADVANCED_FACE ( 'NONE', ( #243 ), #6, .T. ) ;
#62 = AXIS2_PLACEMENT_3D ( 'NONE', #224, #185, #142 ) ;
#63 = CARTESIAN_POINT ( 'NONE',  ( 0.000000000000000000, 0.000000000000000000, 0.000000000000000000 ) ) ;
#64 = MANIFOLD_SOLID_BREP ( 'SF_BLKH_250.sat[2]', #131 ) ;
#65 = EDGE_LOOP ( 'NONE', ( #103 ) ) ;
#66 = MANIFOLD_SOLID_BREP ( 'SF_BLKH_250.sat[4]', #148 ) ;
#67 = ADVANCED_FACE ( 'NONE', ( #132, #229 ), #25, .T. ) ;
#68 =( NAMED_UNIT ( * ) PLANE_ANGLE_UNIT ( ) SI_UNIT ( $, .RADIAN. ) );
#69 = COLOUR_RGB ( '',0.7921568627450980005, 0.8196078431372548767, 0.9333333333333333481 ) ;
#70 = AXIS2_PLACEMENT_3D ( 'NONE', #112, #259, #195 ) ;
#71 = PLANE ( 'NONE',  #57 ) ;
#72 = SURFACE_SIDE_STYLE ('',( #159 ) ) ;
#73 = CARTESIAN_POINT ( 'NONE',  ( 6.061868923326209809E-12, 0.000000000000000000, 0.000000000000000000 ) ) ;
#74 = CARTESIAN_POINT ( 'NONE',  ( 6.569989947111290956E-12, -1.002916565331772095E-11, 49.45080988066240479 ) ) ;
#75 = FILL_AREA_STYLE ('',( #113 ) ) ;
#76 = PRODUCT_RELATED_PRODUCT_CATEGORY ( 'part', '', ( #213 ) ) ;
#77 = CARTESIAN_POINT ( 'NONE',  ( -1.484836452923860042E-11, -9.960601041788740898E-11, 63.41004786968589002 ) ) ;
#78 =( GEOMETRIC_REPRESENTATION_CONTEXT ( 3 ) GLOBAL_UNCERTAINTY_ASSIGNED_CONTEXT ( ( #34 ) ) GLOBAL_UNIT_ASSIGNED_CONTEXT ( ( #250, #68, #10 ) ) REPRESENTATION_CONTEXT ( 'NONE', 'WORKASPACE' ) );
#79 = FILL_AREA_STYLE ('',( #266 ) ) ;
#80 = EDGE_LOOP ( 'NONE', ( #249 ) ) ;
#81 = DIRECTION ( 'NONE',  ( 1.615544574432581800E-15, 1.000000000000000000, 0.000000000000000000 ) ) ;
#82 = CIRCLE ( 'NONE', #122, 127.1644589858678103 ) ;
#83 = DIRECTION ( 'NONE',  ( 0.000000000000000000, 1.000000000000000000, 0.000000000000000000 ) ) ;
#84 = EDGE_CURVE ( 'NONE', #157, #157, #170, .T. ) ;
#85 = DIRECTION ( 'NONE',  ( 1.615544574432567798E-15, 1.000000000000000000, -1.609823385706476984E-15 ) ) ;
#86 = DIRECTION ( 'NONE',  ( 0.000000000000000000, 1.000000000000000000, 0.000000000000000000 ) ) ;
#87 = CLOSED_SHELL ( 'NONE', ( #260, #218 ) ) ;
#88 = STYLED_ITEM ( 'NONE', ( #193 ), #238 ) ;
#89 =( GEOMETRIC_REPRESENTATION_CONTEXT ( 3 ) GLOBAL_UNCERTAINTY_ASSIGNED_CONTEXT ( ( #18 ) ) GLOBAL_UNIT_ASSIGNED_CONTEXT ( ( #98, #123, #42 ) ) REPRESENTATION_CONTEXT ( 'NONE', 'WORKASPACE' ) );
#90 = SURFACE_STYLE_USAGE ( .BOTH. , #110 ) ;
#91 = PLANE ( 'NONE',  #265 ) ;
#92 = FACE_OUTER_BOUND ( 'NONE', #245, .T. ) ;
#93 = ORIENTED_EDGE ( 'NONE', *, *, #23, .F. ) ;
#94 = PRESENTATION_LAYER_ASSIGNMENT (  '', '', ( #155 ) ) ;
#95 = CARTESIAN_POINT ( 'NONE',  ( 6.647330622910832242E-12, 127.1644589858577632, 37.32438899456028736 ) ) ;
#96 = ORIENTED_EDGE ( 'NONE', *, *, #84, .F. ) ;
#97 = VERTEX_POINT ( 'NONE', #200 ) ;
#98 =( LENGTH_UNIT ( ) NAMED_UNIT ( * ) SI_UNIT ( .MILLI., .METRE. ) );
#99 = EDGE_LOOP ( 'NONE', ( #261 ) ) ;
#100 = ORIENTED_EDGE ( 'NONE', *, *, #49, .F. ) ;
#101 = PRESENTATION_LAYER_ASSIGNMENT (  '', '', ( #226 ) ) ;
#102 = PRODUCT_DEFINITION ( 'UNKNOWN', '', #135, #236 ) ;
#103 = ORIENTED_EDGE ( 'NONE', *, *, #8, .T. ) ;
#104 = MECHANICAL_DESIGN_GEOMETRIC_PRESENTATION_REPRESENTATION (  '', ( #226 ), #3 ) ;
#105 = PRESENTATION_LAYER_ASSIGNMENT (  '', '', ( #4 ) ) ;
#106 = EDGE_LOOP ( 'NONE', ( #237 ) ) ;
#107 = DIRECTION ( 'NONE',  ( -1.061754398022796052E-14, -2.484129621770760084E-15, -1.000000000000000000 ) ) ;
#108 = DIRECTION ( 'NONE',  ( 1.027528214424256061E-14, 1.613788192140710016E-15, 1.000000000000000000 ) ) ;
#109 = AXIS2_PLACEMENT_3D ( 'NONE', #127, #107, #32 ) ;
#110 = SURFACE_SIDE_STYLE ('',( #167 ) ) ;
#111 = CARTESIAN_POINT ( 'NONE',  ( 6.771933018915370822E-12, -1.002387499991054074E-11, 49.45080988066240479 ) ) ;
#112 = CARTESIAN_POINT ( 'NONE',  ( 5.785152883014100879E-12, -1.015187933717242010E-11, -26.58995213031475302 ) ) ;
#113 = FILL_AREA_STYLE_COLOUR ( '', #215 ) ;
#114 = ORIENTED_EDGE ( 'NONE', *, *, #84, .T. ) ;
#115 = CARTESIAN_POINT ( 'NONE',  ( 6.647330622910840320E-12, -1.004344447474946002E-11, 37.32438899456049342 ) ) ;
#116 = COLOUR_RGB ( '',0.7921568627450980005, 0.8196078431372548767, 0.9333333333333333481 ) ;
#117 = DIRECTION ( 'NONE',  ( 1.615544574432567798E-15, 1.000000000000000000, -1.609823385706476984E-15 ) ) ;
#118 = SHAPE_DEFINITION_REPRESENTATION ( #24, #204 ) ;
#119 = DIRECTION ( 'NONE',  ( 1.000000000000000000, 0.000000000000000000, 0.000000000000000000 ) ) ;
#120 = DIRECTION ( 'NONE',  ( 1.027528214424256061E-14, -0.000000000000000000, 1.000000000000000000 ) ) ;
#121 = ADVANCED_FACE ( 'NONE', ( #11 ), #128, .F. ) ;
#122 = AXIS2_PLACEMENT_3D ( 'NONE', #144, #58, #124 ) ;
#123 =( NAMED_UNIT ( * ) PLANE_ANGLE_UNIT ( ) SI_UNIT ( $, .RADIAN. ) );
#124 = DIRECTION ( 'NONE',  ( 1.615544574432571151E-15, 1.000000000000000000, -1.636988972998745661E-15 ) ) ;
#125 = ADVANCED_FACE ( 'NONE', ( #190, #46 ), #172, .T. ) ;
#126 = ORIENTED_EDGE ( 'NONE', *, *, #7, .F. ) ;
#127 = CARTESIAN_POINT ( 'NONE',  ( 7.148059921746611101E-12, -9.293898983742110431E-12, 60.90493205240520069 ) ) ;
#128 = PLANE ( 'NONE',  #53 ) ;
#129 = ADVANCED_FACE ( 'NONE', ( #30 ), #71, .T. ) ;
#130 = SURFACE_SIDE_STYLE ('',( #171 ) ) ;
#131 = CLOSED_SHELL ( 'NONE', ( #214, #223, #149, #125, #67, #129 ) ) ;
#132 = FACE_BOUND ( 'NONE', #196, .T. ) ;
#133 = SURFACE_STYLE_USAGE ( .BOTH. , #130 ) ;
#134 = VERTEX_POINT ( 'NONE', #192 ) ;
#135 = PRODUCT_DEFINITION_FORMATION_WITH_SPECIFIED_SOURCE ( 'ANY', '', #213, .NOT_KNOWN. ) ;
#136 = FACE_OUTER_BOUND ( 'NONE', #164, .T. ) ;
#137 = DIRECTION ( 'NONE',  ( 1.027528214424256061E-14, -2.938735877056159849E-45, 1.000000000000000000 ) ) ;
#138 = CARTESIAN_POINT ( 'NONE',  ( 6.771933018915373246E-12, 127.1644589858577916, 49.45080988066219163 ) ) ;
#139 = EDGE_LOOP ( 'NONE', ( #176 ) ) ;
#140 = AXIS2_PLACEMENT_3D ( 'NONE', #59, #120, #83 ) ;
#141 = CARTESIAN_POINT ( 'NONE',  ( 6.647330622910918676E-12, 124.9999999999906066, 37.32438899456794701 ) ) ;
#142 = DIRECTION ( 'NONE',  ( 1.615544574432567798E-15, 1.000000000000000000, -1.609823385706476984E-15 ) ) ;
#143 = CIRCLE ( 'NONE', #246, 125.0000000000000000 ) ;
#144 = CARTESIAN_POINT ( 'NONE',  ( 6.441890771135560986E-12, -1.004873512815665962E-11, 37.32438899456049342 ) ) ;
#145 = PRODUCT_CONTEXT ( 'NONE', #52, 'mechanical' ) ;
#146 = EDGE_LOOP ( 'NONE', ( #126 ) ) ;
#147 = DIRECTION ( 'NONE',  ( 1.615544574432571151E-15, 1.000000000000000000, -1.636988972998745661E-15 ) ) ;
#148 = CLOSED_SHELL ( 'NONE', ( #16, #61, #121 ) ) ;
#149 = ADVANCED_FACE ( 'NONE', ( #205, #188 ), #211, .T. ) ;
#150 = AXIS2_PLACEMENT_3D ( 'NONE', #227, #252, #85 ) ;
#151 = MECHANICAL_DESIGN_GEOMETRIC_PRESENTATION_REPRESENTATION (  '', ( #88 ), #199 ) ;
#152 = PRESENTATION_STYLE_ASSIGNMENT (( #90 ) ) ;
#153 = FACE_OUTER_BOUND ( 'NONE', #2, .T. ) ;
#154 = VERTEX_POINT ( 'NONE', #19 ) ;
#155 = STYLED_ITEM ( 'NONE', ( #152 ), #64 ) ;
#156 = DIRECTION ( 'NONE',  ( -4.921855169421729884E-14, -2.529218490556519642E-13, 1.000000000000000000 ) ) ;
#157 = VERTEX_POINT ( 'NONE', #138 ) ;
#158 = ORIENTED_EDGE ( 'NONE', *, *, #8, .F. ) ;
#159 = SURFACE_STYLE_FILL_AREA ( #75 ) ;
#160 = EDGE_CURVE ( 'NONE', #134, #134, #13, .T. ) ;
#161 = CIRCLE ( 'NONE', #258, 124.9999999999906066 ) ;
#162 = EDGE_LOOP ( 'NONE', ( #264 ) ) ;
#163 = CARTESIAN_POINT ( 'NONE',  ( 6.445387551106861428E-12, 0.000000000000000000, 37.32438899456794701 ) ) ;
#164 = EDGE_LOOP ( 'NONE', ( #114 ) ) ;
#165 = DIRECTION ( 'NONE',  ( 1.615544574432569376E-15, 1.000000000000000000, 0.000000000000000000 ) ) ;
#166 = FACE_OUTER_BOUND ( 'NONE', #181, .T. ) ;
#167 = SURFACE_STYLE_FILL_AREA ( #79 ) ;
#168 = PRESENTATION_STYLE_ASSIGNMENT (( #133 ) ) ;
#169 = AXIS2_PLACEMENT_3D ( 'NONE', #180, #262, #12 ) ;
#170 = CIRCLE ( 'NONE', #174, 127.1644589858678103 ) ;
#171 = SURFACE_STYLE_FILL_AREA ( #31 ) ;
#172 = CYLINDRICAL_SURFACE ( 'NONE', #150, 125.0000000000000000 ) ;
#173 = DIRECTION ( 'NONE',  ( 1.027528214424256061E-14, 1.613788192140710016E-15, 1.000000000000000000 ) ) ;
#174 = AXIS2_PLACEMENT_3D ( 'NONE', #210, #45, #147 ) ;
#175 =( NAMED_UNIT ( * ) PLANE_ANGLE_UNIT ( ) SI_UNIT ( $, .RADIAN. ) );
#176 = ORIENTED_EDGE ( 'NONE', *, *, #49, .T. ) ;
#177 = VERTEX_POINT ( 'NONE', #217 ) ;
#178 = DIRECTION ( 'NONE',  ( 1.027528214424256061E-14, 1.613788192140710016E-15, 1.000000000000000000 ) ) ;
#179 = UNCERTAINTY_MEASURE_WITH_UNIT (LENGTH_MEASURE( 1.000000000000000082E-05 ), #191, 'distance_accuracy_value', 'NONE');
#180 = CARTESIAN_POINT ( 'NONE',  ( 7.174658099112149405E-12, -9.287675951334441396E-12, 63.41004786968598950 ) ) ;
#181 = EDGE_LOOP ( 'NONE', ( #225 ) ) ;
#182 = TOROIDAL_SURFACE ( 'NONE', #208, -3.150515650746819940, 842.9001477931640238 ) ;
#183 = FILL_AREA_STYLE_COLOUR ( '', #219 ) ;
#184 = CIRCLE ( 'NONE', #240, 105.1946386251649983 ) ;
#185 = DIRECTION ( 'NONE',  ( -1.027528214424256061E-14, -1.613788192140710016E-15, -1.000000000000000000 ) ) ;
#186 = PRESENTATION_LAYER_ASSIGNMENT (  '', '', ( #88 ) ) ;
#187 = DIRECTION ( 'NONE',  ( -1.027528214424256061E-14, 2.938735877056159849E-45, -1.000000000000000000 ) ) ;
#188 = FACE_OUTER_BOUND ( 'NONE', #28, .T. ) ;
#189 = DIRECTION ( 'NONE',  ( -1.658212899529295031E-29, 1.000000000000000000, -1.613788192140710016E-15 ) ) ;
#190 = FACE_OUTER_BOUND ( 'NONE', #65, .T. ) ;
#191 =( LENGTH_UNIT ( ) NAMED_UNIT ( * ) SI_UNIT ( .MILLI., .METRE. ) );
#192 = CARTESIAN_POINT ( 'NONE',  ( -61.83185720410385500, 85.10425036488359751, 63.41004786968648688 ) ) ;
#193 = PRESENTATION_STYLE_ASSIGNMENT (( #239 ) ) ;
#194 = FACE_OUTER_BOUND ( 'NONE', #56, .T. ) ;
#195 = DIRECTION ( 'NONE',  ( 1.615544574432571151E-15, 1.000000000000000000, -1.609705823448766406E-15 ) ) ;
#196 = EDGE_LOOP ( 'NONE', ( #14 ) ) ;
#197 = ORIENTED_EDGE ( 'NONE', *, *, #23, .T. ) ;
#198 = SURFACE_SIDE_STYLE ('',( #1 ) ) ;
#199 =( GEOMETRIC_REPRESENTATION_CONTEXT ( 3 ) GLOBAL_UNCERTAINTY_ASSIGNED_CONTEXT ( ( #179 ) ) GLOBAL_UNIT_ASSIGNED_CONTEXT ( ( #191, #175, #234 ) ) REPRESENTATION_CONTEXT ( 'NONE', 'WORKASPACE' ) );
#200 = CARTESIAN_POINT ( 'NONE',  ( 6.771933018915361937E-12, 124.9999999999899671, 49.45080988066219874 ) ) ;
#201 = EDGE_CURVE ( 'NONE', #235, #235, #161, .T. ) ;
#202 = AXIS2_PLACEMENT_3D ( 'NONE', #111, #108, #189 ) ;
#203 = DIRECTION ( 'NONE',  ( -1.027528214424256061E-14, 2.938735877056159849E-45, -1.000000000000000000 ) ) ;
#204 = ADVANCED_BREP_SHAPE_REPRESENTATION ( 'SF_BLKH_250', ( #64, #238, #66, #254 ), #89 ) ;
#205 = FACE_BOUND ( 'NONE', #162, .T. ) ;
#206 =( NAMED_UNIT ( * ) PLANE_ANGLE_UNIT ( ) SI_UNIT ( $, .RADIAN. ) );
#207 = AXIS2_PLACEMENT_3D ( 'NONE', #38, #187, #165 ) ;
#208 = AXIS2_PLACEMENT_3D ( 'NONE', #255, #156, #256 ) ;
#209 = EDGE_CURVE ( 'NONE', #97, #97, #143, .T. ) ;
#210 = CARTESIAN_POINT ( 'NONE',  ( 6.566493167140101181E-12, -1.002916565331772095E-11, 49.45080988066240479 ) ) ;
#211 = PLANE ( 'NONE',  #202 ) ;
#212 = DIRECTION ( 'NONE',  ( -1.027528214424256061E-14, -1.613788192140710016E-15, -1.000000000000000000 ) ) ;
#213 = PRODUCT ( 'SF_BLKH_250', 'SF_BLKH_250', '', ( #145 ) ) ;
#214 = ADVANCED_FACE ( 'NONE', ( #35 ), #91, .F. ) ;
#215 = COLOUR_RGB ( '',0.7921568627450980005, 0.8196078431372548767, 0.9333333333333333481 ) ;
#216 = CYLINDRICAL_SURFACE ( 'NONE', #70, 127.1644589858678103 ) ;
#217 = CARTESIAN_POINT ( 'NONE',  ( 6.886767270186141433E-12, 124.9999999999899956, 60.62658585048490067 ) ) ;
#218 = ADVANCED_FACE ( 'NONE', ( #194 ), #182, .T. ) ;
#219 = COLOUR_RGB ( '',0.7921568627450980005, 0.8196078431372548767, 0.9333333333333333481 ) ;
#220 = VERTEX_POINT ( 'NONE', #95 ) ;
#221 = FACE_OUTER_BOUND ( 'NONE', #22, .T. ) ;
#222 = SURFACE_STYLE_USAGE ( .BOTH. , #198 ) ;
#223 = ADVANCED_FACE ( 'NONE', ( #136, #92 ), #216, .T. ) ;
#224 = CARTESIAN_POINT ( 'NONE',  ( 6.684824198382070452E-12, -1.001113031801962169E-11, 60.62658585048509963 ) ) ;
#225 = ORIENTED_EDGE ( 'NONE', *, *, #7, .T. ) ;
#226 = STYLED_ITEM ( 'NONE', ( #168 ), #66 ) ;
#227 = CARTESIAN_POINT ( 'NONE',  ( 5.788649662985300347E-12, -1.015187933717242010E-11, -26.58995213031475302 ) ) ;
#228 = FILL_AREA_STYLE_COLOUR ( '', #116 ) ;
#229 = FACE_OUTER_BOUND ( 'NONE', #55, .T. ) ;
#230 = DIRECTION ( 'NONE',  ( 1.027528214424256061E-14, -0.000000000000000000, 1.000000000000000000 ) ) ;
#231 = CARTESIAN_POINT ( 'NONE',  ( 6.263811995130268673E-12, 124.9999999999906066, -2.075022039861731857E-27 ) ) ;
#232 = CIRCLE ( 'NONE', #62, 125.0000000000000000 ) ;
#233 = AXIS2_PLACEMENT_3D ( 'NONE', #36, #230, #51 ) ;
#234 =( NAMED_UNIT ( * ) SI_UNIT ( $, .STERADIAN. ) SOLID_ANGLE_UNIT ( ) );
#235 = VERTEX_POINT ( 'NONE', #231 ) ;
#236 = PRODUCT_DEFINITION_CONTEXT ( 'detailed design', #263, 'design' ) ;
#237 = ORIENTED_EDGE ( 'NONE', *, *, #201, .F. ) ;
#238 = MANIFOLD_SOLID_BREP ( 'SF_BLKH_250.sat[3]', #87 ) ;
#239 = SURFACE_STYLE_USAGE ( .BOTH. , #72 ) ;
#240 = AXIS2_PLACEMENT_3D ( 'NONE', #77, #247, #242 ) ;
#241 = APPLICATION_PROTOCOL_DEFINITION ( 'draft international standard', 'automotive_design', 1998, #263 ) ;
#242 = DIRECTION ( 'NONE',  ( 1.000000000000000000, 0.000000000000000000, 1.952487904706957307E-14 ) ) ;
#243 = FACE_OUTER_BOUND ( 'NONE', #146, .T. ) ;
#244 =( LENGTH_UNIT ( ) NAMED_UNIT ( * ) SI_UNIT ( .MILLI., .METRE. ) );
#245 = EDGE_LOOP ( 'NONE', ( #100 ) ) ;
#246 = AXIS2_PLACEMENT_3D ( 'NONE', #74, #212, #117 ) ;
#247 = DIRECTION ( 'NONE',  ( 1.947163477498735097E-14, 1.264609245278259821E-13, -1.000000000000000000 ) ) ;
#248 =( NAMED_UNIT ( * ) SI_UNIT ( $, .STERADIAN. ) SOLID_ANGLE_UNIT ( ) );
#249 = ORIENTED_EDGE ( 'NONE', *, *, #160, .F. ) ;
#250 =( LENGTH_UNIT ( ) NAMED_UNIT ( * ) SI_UNIT ( .MILLI., .METRE. ) );
#251 = CARTESIAN_POINT ( 'NONE',  ( 6.263811995130260595E-12, 0.000000000000000000, 0.000000000000000000 ) ) ;
#252 = DIRECTION ( 'NONE',  ( -1.027528214424256061E-14, -1.613788192140710016E-15, -1.000000000000000000 ) ) ;
#253 = AXIS2_PLACEMENT_3D ( 'NONE', #163, #203, #81 ) ;
#254 = AXIS2_PLACEMENT_3D ( 'NONE', #63, #39, #119 ) ;
#255 = CARTESIAN_POINT ( 'NONE',  ( 1.428128448832666007E-12, 6.103673122481720689E-12, -772.4978338341929884 ) ) ;
#256 = DIRECTION ( 'NONE',  ( -1.000000000000000000, 9.326010097847696516E-30, -4.921855169421729884E-14 ) ) ;
#257 = UNCERTAINTY_MEASURE_WITH_UNIT (LENGTH_MEASURE( 1.000000000000000082E-05 ), #48, 'distance_accuracy_value', 'NONE');
#258 = AXIS2_PLACEMENT_3D ( 'NONE', #73, #137, #15 ) ;
#259 = DIRECTION ( 'NONE',  ( -1.027528214424256061E-14, -1.613788192140710016E-15, -1.000000000000000000 ) ) ;
#260 = ADVANCED_FACE ( 'NONE', ( #153 ), #33, .F. ) ;
#261 = ORIENTED_EDGE ( 'NONE', *, *, #209, .F. ) ;
#262 = DIRECTION ( 'NONE',  ( -1.027528214424256061E-14, -1.613788192140710016E-15, -1.000000000000000000 ) ) ;
#263 = APPLICATION_CONTEXT ( 'automotive_design' ) ;
#264 = ORIENTED_EDGE ( 'NONE', *, *, #209, .T. ) ;
#265 = AXIS2_PLACEMENT_3D ( 'NONE', #115, #178, #37 ) ;
#266 = FILL_AREA_STYLE_COLOUR ( '', #69 ) ;
ENDSEC;
END-ISO-10303-21;
